Overtaken

By Eman



Intro

-------------------------------------
-------------------------------------
--2--2--2--1---2--4--4--2--1--2---1-- (2x)
-------------------------------------
-------------------------------------
-------------------------------------

guitar 1
-------------------------------------
-------------------------------------
-------------------------------------
--7--7--7--6---7--9--9--7--6--7---6--
-------------------------------------
-------------------------------------

guitar 2
--------------------------
--------------------------
--------------------------
--7--7--7--6--7-----------
-----------------7--------
--------------------------


----------------------------------
----------------------------------
----------------------------------
--7--7--6h7--7----7p6p4s2---------
----------------------------------
----------------------------------

Verse:
For the first 3 tab part of the verse you need to use the palm mute!!
-----------------------------------
-----------------------------------
-----------------------------------
-----------------------------------
--7-7-7-7-7-7-7-7-7-7-7-7-7-7-7-7--
--5-5-5-5-5-5-5-5-5-5-5-5-5-5-5-5--

-----------------------------------
-----------------------------------
-----------------------------------
--7-7-7-7-7-7-7-7-7-7-7-7-7-7-7-7--
--5-5-5-5-5-5-5-5-5-5-5-5-5-5-5-5--
-----------------------------------

-----------------------------------
-----------------------------------
-----------------------------------
--9-9-9-9-9-9-9-9-9-9-9-9-9-9-9-9--
--7-7-7-7-7-7-7-7-7-7-7-7-7-7-7-7--
-----------------------------------

you overtaken me…..
---------------------------------
---------------------------------
---------------------------------
--7--7--6h7--7----7p6p4s2--------
---------------------------------
---------------------------------

This part of the verse the guitar play the same thing that has do in the intro!
but by using the palm mute
--------------------------------
--------------------------------
-2-2-2-1-1-2-2-4-4-4-2-1-2-2-1-- (2x)
--------------------------------
--------------------------------
--------------------------------

---------------------------------------------

---------------------------------------------
---------------------------------------------
-7--7--7--6--6--7--7--9--9--9--7--6--7-7--6--
---------------------------------------------
---------------------------------------------

---------------------------------
---------------------------------
---------------------------------
6-6-6-6-6-6-6-6-8-8-8-8-8-8-8-8--
---------------------------------
---------------------------------

Chords of the verse:
A D E
A D
Chorus:
A F#m D E
A E
Guitar 1
|--5--||-----||-----||-----|
|--5--||-----||-----||-----|
|--6--||-11--||--7--||--9--|
|--7--||-11--||--7--||--9--|
|--7--||--9--||--5--||--7--|
|--5--||-----||-----||-----|

Guitar 2
|------||--5--||--10-||--12-|
|--10--||--7--||--10-||--12-|
|--9---||--6--||--6--||--7--|
|--7---||-----||-----||-----|
|------||-----||-----||-----|
|------||-----||-----||-----|

Bridge:
D E F#m G#m D E F#m G#m

This is my first tab!!so I dnt knw if is that ryt!!ehehehe…..God bless yah olweis!!!

4 comments:

temo said...

Awsome job on the vid, maybe you can turn down the volume that way it doesn't sound so harsh, but still and awsome job!!!

ryan said...

awesome! do you know if i can buy their cd on www.Amazon.com? i can't find the album that has this song on it

Gabriel L said...

What kinda of guitar is that?

longge said...

Affairs buzz affluence Franck Muller watch are realistic, as continued as they attending accomplished and plan in acceptable condition. Compared to the apery or affected ones that are affected from the original, they are almost better. Buy buzz affluence watches can assuredly save money. You can authority admiring watches aural your coffer income.