Hosanna (acoustic)

By Daryl

hello here's my 1st post where i actually talk(type) haha.i know you guys really love this song
hope this will be useful when u don't actually have a full band with you. enjoy =)



i used NO distortion and NO modulation pedals =P

Intro
-4-----------4---x--------------
-5-------5h7-----4-----------4--
-6-----6---------4-------4h6----
-x---------------6-----6--------
-4---4-----------x--------------
-x---------------x--------------

--------------------------------
---5-----------4-------------4--
---6-----------4---------4h6----
---7-----------6-------6--------
--------------------------------
---5----------------------------

-----4-------4------------------
---5-----5h7---------4-------4--
-6-----6-----------4-----4h6----
-----------------6-----6--------
--------------------------------
--------------------------------

--------7----------9----
---5----5---7------7----
---6----6---8------8----
---7----7---9------9----
------------------------
---5----5---7------7----

Chords: C#m E F#m G#m

pre-verse

-4---7--5--4------
-5---5--x--5----
-6---6--6--6------
-x---x--x--x--------
-4---4--4--4-------
-x---x--x--x------

Chords: C#m

Chorus:

-----0-------0-------0-------0-----
---0---0---0---0---0---0---0---0---
-----------------------------------
-----------------------------------
---------0-------2-------4---------
-4---------------------------------

-----0-------0-------0-------0-----
---0---0---0---0---0---0---0---0---
-----------------------------------
-----------------------------------
-0-------4-------2-------2---------
-----------------------------------

-----0-------0-------0-------0-----
---0---0---0---0---0---0---0---0---
-----------------------------------
-----------------------------------
---------0-------2-------4---------
-4---------------------------------

-----0-------0---
---0---0---0---0-
-----------------
-----------------
-0-------2-------
-----------------

alright guys.. i made a mistake here in the vid. apologies =P cause i forgot the chords on the spot.. the mistake happens at the end of the chorus so please take note =)

Chords:
E/G# A B C#m
A C#m B B

E/G# A B C#m
A B

instrumental

right..here's the most challenging part of the song do stretch your fingers before you play this part. yes and you do need to use your thumb unless you are mr fantastic or something=P
keep playing the chord while playing the line i;ve only tabbed out the line to keep it simple=)

-7-------------7----------------

-x--9--7--9----7--9--7--9-------
-9-------------9----------------
-9-------------9----------------
-x-------------7----------------
-9-------------x----------------

open F#m and open G#m

-7h9p7------------7h9p7------------
-x-----9--7--9----7------9--7--9---
-9----------------9----------------
-9----------------9----------------
-x----------------7----------------
-9----------------x----------------

open F#m and open G#m ----->bridge

9 comments:

SAMue1 said...

I like the last part, the "solo" part, it's quite creative

Anonymous said...

Good idea to show us the song on acoustic. But wouldnt it be better to show us the actual Acoustic part rather than the electric part strummed on an acoustic?

The chords for both instruments are different.

Anonymous said...

what does it mean? :"p" "h"

I'm not good at English. Sorry.

kenny said...

p = pull off
h = hammer on

Anonymous said...

hey really good job
did u use a capo though?

Anonymous said...

Oe bro...
hmmm creo q le falta a tus acordes ahhh y la parte de los bajos hmmm no pasa nada... podrĂ­as mejorarlo... puedes usar notas abiertas en vez de solo bajos...
espeor te sirva...

Anonymous said...

dude ... close ur mouth when ur playing .. its quite distracting

Jason said...

Thanks man! Nice video. It helped a lot.

@Anonymous: i watched a video of my bands last show and i noticed i do the same thing, i can't say a word. you get lost in the music

PROJET COMMERCIALE said...

Good job !!!
Can you play the bethany dillon song called HERO ... this is an amazing song ang it's crazy it is impossible to find the chords ..
Thank you
God bless You