Found (bass)

By Temo Morales

This song uses a lot of the low B string and it really only hits the root notes. Only in the bridge does it pick up fast. Timing is very important and I have some trouble with that so ignore the mistakes in the Video.



Intro:
G)------------------------------
D)------------------------------
A)-15-15h17p15------------------
E)-------------15-12----12----17
B)------------------------------

G)------------------------------
D)------------------------------
A)-15-15h17p15------------------
E)-------------15---------------
B)---------------(15)-(13)------

If you have a 4 string bass then instead of playing the 15 and 13 with the () play this instead on the last part:

G)------------------------------
D)------------------------------
A)-15-15h17p15------------------
E)-------------15-10-8----------

If you have any questions pm me in the forum.

2 comments:

Bassplayersam said...

Hey.

U neeed to change the tone of your bass (to tinny for this song).

And dont hammer on that note, sound much smoother if you slide. ive played this song quite a bit. if u want me to record it and i can send it to you to post, just shoot me and email.

samgageler@hotmail.com

anyway, keep it up

trackz said...

hi..

firstly..sorry arh..newbie here..

juz wanna ask wat is 15h17p??