Saviour King I

Here's Saviour King by Hillsong United.. its a really long song, so I did the first bit of it first, maybe more to come in the future. There's a lot of guess work done for the verse and bridge, so it may not be exactly correct, but what I have should be alright.



Tabs
Verse
-----------------------------------
------------------------3------1---
---5------5------5----3---3--2---2-
-3---3--2---2--3---5---------------
-----------------------------------
-----------------------------------

---------------------------------
---1-----------------------------
-2---2----5------5---------------
--------5---5--3---3-------------
---------------------------------
---------------------------------

Chords:
Dm C F Gm Dm Dm C F

Pre-Chorus
If you've done my posts on 'chords on the first three strings' under theory & techniques, many of these chord shapes should look familiar:
-----5------6------8------8------
---6------6------6------8--------
-7------7------5------9----------
---------------------------------
---------------------------------
---------------------------------

-----5------6--------10--12------
---6------6-------11-----13------
-7------7------10--------12------
---------------------------------
---------------------------------
---------------------------------

Chords: Dm Bb F C Dm Bb Gm7 C

Chorus ('We love You Lord...')
---------------------------------
-10------8------6----------------
---------------------------------
----10s8---8s7-------------------
---------------------------------
---------------------------------

------------------------------------------
------------------------------------------
---5------5------5------5------5------5---
-3---3--3---3--2---2--2---2--3---3--3---3-
------------------------------------------
------------------------------------------

Chords: F Dm C F

11 comments:

Brian said...

link no worky

Anonymous said...

Heres the intro:

Intro Tab
E|-8-6-5|-8-6-5|-3--6--5|
B|------|------|--------|

DJP said...

THANK YOU SOOOOOOOOOOOOOOOOOOOOOOOOOOOOOOOOOOOOOOOOOOOOOOOOOOOOOOOOOOOOOOOOOOO
MUCH!! GOD BLESS YOU!!

Anonymous said...

i think in the beginning when he starts singing, you can use a panning effect.

GabonMx said...

i play the intro & outro like this:

B----13-11-10

B----13-11-10-8-11-10

Matt Vanoy said...

hey guys, i play the intro on further down the neck... i posted below, our team finds it has a fuller sound... let me know what you think
(repeat)
E----------------------------|
B-13-10-10-13-10-10-8--11-10-|
G-14-15-10-14-15-10-12-15-10-|
D----------------------------|
A----------------------------|
E----------------------------|

of course, hitting both strings at the same time...

God bless, matt

Anonymous said...

What are the delay settings you guys use on this song? What delay pedal? Thanks.

brwnsdiddy93 said...

how would you play this in C# and capo on 6?? answer me quick, i need to play this friday!! Big church meeting!!

Desire7000 said...

Hey Kenny,

Thanks for this song man.
I always learn my songs from u a special thanks to u.
Keep on keeping on.
Cheers

David said...

Do the intro. and chorus have the same chords?

123 said...

There is no agnosticism Tiffany Pendants adornment accept the appropriate adeptness to be able to add a appropriate personality to whoever wears them and aswell can allure any abnormality gaze. Replica Tiffany Adornment will not accord you such a amazing feeling. Tiffany adornment let you agreement the admirable activity and accomplish you added admirable and sexy.