Let Us Adore

Here's Let Us Adore by Hillsong, from the God He Reigns album. What I've tabbed here is instrumental portion of the song, at about 2:08. The lead guitar portion in the cd isn't very loud, and I had to do some guesswork, especially since several double stops (two notes at once), which by the way sound really great, were played.



Tabs
To make it easier to understand, I put each bar of the song on a separate line.

------|-------------------------------
-8-10-|-10s12-12-10-10-10h12-12-10-10-
-0-0--|-0-----0--0--0--0-----0--0--0--
------|-------------------------------
------|-------------------------------
------|-------------------------------
G

------------------------------------
----10----10-------10-10--10--------
-12----11----11h12-11-12--11--------
------------------------------------
------------------------------------
------------------------------------
D/F#

------------------------------------
-10h12-10h12--10--10h12--10h12------
-11h12-11h12--11--11h12--11h12------
------------------------------------
------------------------------------
------------------------------------
Em

------------------------------------
-10h12-10h12--10--10h12--10h12------
-11h12-11h12--11--11h12--11h12--s12-
------------------------------------
------------------------------------
------------------------------------
D


------------------------------------
-13----12----10---------------------
----12----12----12-12-12------------
------------------------------------
------------------------------------
------------------------------------
C

------------------------------------
-10s12-12----10----10---------------
----------12----12----11------------
------------------------------------
------------------------------------
------------------------------------
Em

------------------------------------
------------------------------------
-12s14-14------------------7--------
----------12s14-14-12--7s9---7------
------------------------------------
------------------------------------
D

2 comments:

Anonymous said...

What was the delay settings for this?

Rufus said...

It doesn't sound like he has any delay on it...just plenty of reverb.