I Believe (bridge, endtro)

By Jerome
Here's Hillsong I Believe bridge and outro...have fun. I use a Metal zone boss or (A lot of distortion)



Tabs
Bridge:
Strum.
------------------
------------------
------12----------
------------------
------------------
------------------
----------------------------
----------------------------
----12---11---14---12-------
----------------------------
----------------------------
----------------------------
----------------------------
----13---12---15---13-------
----------------------------
----------------------------
----------------------------
----------------------------
[Kenny: You can also strum octaves to get a larger sound]


Outro: pick it fast
-------------------
-------------------
-12-11-12-11-12-11-
-------------------
-------------------
-------------------
followed by:
------------------------
13--12--13--12--13--12--
------------------------
------------------------
------------------------
------------------------

2 comments:

aaron_ said...

i cappo the 7th fret and play variation chords of C and F. Sounds like the way they play i believe ... :/

Anonymous said...

your guitar sound very sharp