Yours is the Kingdom (acoustic)

I've been toying around with my acoustic & capo recently, and came up with this. I think this variation is more suitable to be played in the background with the whole band:



I used Google video here because youtube is down at the moment, but will upload to youtube as well later.

Tabs
Put a capo at the 2nd fret, the tabs are relative to the capo. Strum the E and B strings for everything (won't include the tabs for these two strings, which are '0' throughout).

Intro
-----------
-----------
-2-1-2-1---
-2-2-4-2---
-0-0-0-0---
-----------

Verse
----------------
----------------
-6--13--9---8---
-7--14--11--9---
----------------
----------------
Omit the 3rd chord on the 4th repeat.

Pre-Chorus
--------------------
--------------------
-6--2--1--4----2----
-6--2--2--4----2----
-4--0--2--2----x----
-------0-------2----


Chorus
--------------------------------------
--------------------------------------
-2--1--4---2--1--4--6-----------------
-2--2--4---2--2--4--6-----------------
-0--2--2---0--2--2--4-----------------
----0---------0-----------------------

--------------------------------------
--------------------------------------
-2--1--6--4---2--1--2-----------------
-2--2--6--4---2--2--2-----------------
-0--2--4--2---0--2--0-----------------
----0-----------0---------------------

10 comments:

Another Kenny said...

u have so many guitars!! haha its weird how im learning guitar from another guy with the same name as me. how nice? thanks kenny

kenny said...

I've 3 guitars actually.. two electric, and one acoustic.. not THAT many!

Anonymous said...

yo kenny
what strumming pattern are you using here?

kenny said...

I strummed together with the lead guitar's riff for the intro.

I'm not too sure how to write down the strumming for the rest, the best way to pick it up, IMO, is by listening to the video.

Anonymous said...

Hi Kenny,

You did this record with the guitar pickup or mic?

Anonymous said...

Hmm..nice tabs. Recently been toying around with 2 fingering chords and the intro tabs helps to open new ones..nice!

zing.. said...

is there a chord fingering that remains at the same few frets?

"http://www.youtube.com/watch?v=0HyFBpzGcmE" at 3:42 the chords he plays is aroudn the same few fret.. possible if you know what it is?

Anonymous said...

Yeah, there is, I guess it has connection with CAGED fingering, u don't need to use full fingering for these chords & u can bring them all the way up the neck..u have to play& c it for urself though~

Dima said...

thanks a lot.that stuff helps fine

longge said...

Finally, the replica Panerai uk heirloom tradition is something that is most certainly recession-proof. It does not matter what the current Dow Jones average is when a man hands his fine Rolex watch to his son. It is a rich, emotional transition that makes purchasing a top timepiece all the more attractive.