Worthy is the Lamb (with delay)

Was fooling around with my delay again, this time with a eighth note (not dotted eighth note), or quaver note digital delay, with tap tempo. The repeats sound a little funny for the verse.. I think i set the mix somewhat too high.



Tabs
Verse
Play around with these chords:
-7--
-8-- for C, Em, Am
-9--
----
----
----

-10-
-7-- for D
-7--
----
----
----

-7--
-9-- for G
-7--
----
----
----

Play in this order:
C C G G
C D G G
Em Em D C
Am G D D (x2)


Chorus
Fingering:
-----------------
-8----8-----7----
-7----5-----7----
-5----5-----7----
-----------------
-----------------
G,C2..Am,C..D

Play in this order:
G G D D
Am G C2 C
D C G C
Am G D D

G G D D
Am G C2 C
D C G C D



Bridge
-------------------------
-------13-----12-----8---
-------------------------
-12s14-----12-----10-----
-------------------------
-------------------------

-------------------------
-------13-----12-----10--
-------------------------
-12s14-----12-----12-----
-------------------------
-------------------------

5 comments:

Anonymous said...

-7--
-8-- for C, Em, Am
-9--
----
----
----

how come that shape can be played during C, Em, and Am?

Rishi said...

Hey, great work and im really blessed by your talent and time to do this (inspiration to many),but can you guys do the tabs for the other worthy is the lamb version sung by Darlene. The DVD for the album shows Nigel Hendroff playing in a root position in the A or E chord. Really cool picking style that I'm finding very hard to follow with the background noise... PLEASE bless me with the tabs or if you can post a vid for it that would be nice...

StevenStudio said...

-7--
-8-- for G
-7--
----
----
----

Gilbert said...

Can you please repost your video. It seems youtube has taken it down...

dontmention said...

hmmm...!why can't i see the video??
it says that

This video contains content from WMG and Sony Music Entertainment, one or more of whom have blocked it on copyright grounds.

thats what is say...