Shout to the Lord (with delay)

Here's an old favourite, by Hillsong. I applied the stereo delay I used in Higher, with nearly the same plucking pattern. This also marks my first attempt to sing (i put the volume really soft though) as well! Hope you like this variation.



This version is played in the key of G, which is kinda hard to sing in, for the verse, although its very comfortable for the chorus. You might want to use a capo and play it in A, B, or C instead.

Tabs
-------------10----------5---
-------12-13---------7-8-----
----12-------------7---------
-----------------------------
-10--------------5-----------
-----------------------------

-----0------0------0------0--
-8------7------5------5------
---0------0------0------0----
-----------------------------
-7------5------3------3------
-----------------------------

-----0------0------0------0--
-3------5------3------0------
---0------0------0------0----
-----------------------------
-2------3------2------0------
-----------------------------

------0------0----------------
-10------5-------8--7---8-----
----0------0-----7--7---7-----
------------------------5-----
-8-------3-------5--5---------
------------------------------

3 comments:

Yuri said...

Hey, you can sing too!

Anonymous said...

I just drop by, haven't visited this one b4, u can sing! Deep and nice~

Sing in the coming videos k!

God bless~

Luis Filipe said...

Very nice, I think I will play like this in my church.

God Bless You.