Son of God (Starfield)

Here's Son of God by Starfield, as requested... really like this song.

By the way, its quite clear that I can no longer fulfill all requests, given the sheer volume coming in (and my schoolwork's picking up too); but keep them coming in (don't feel bad or anything), because there's a chance I might do it, or someone might post some tips/tabs. Also, requests on the forum pls! Some of you might have trouble registering - its alright, because you can still post without registering (i think).



Tabs
Main Melody
------------------------------
-------11-13--------11-14-13--
----13-----------13----------- (x2)
-13-----------13--------------
------------------------------
------------------------------

Airy Sound in the Background
-16-15-11-----
----------13--
-------------- (keep repeating)
--------------
--------------
--------------

4 comments:

Anonymous said...

hey i was wondering if i could get the tabs for the part you improved after the initial intro. i really liked that part, and i was wondering if i would expand on what you were playing. haha i will be performing this song at a cafe night with body worship, so anything else would help too. thanks. email: wix02@yahoo.com

Anonymous said...

how do you play from 11 seconds and on at the end of the vid? it's not on the tab. can someone please help me here?

kenny said...

Its actually improvised.. I played something like this:


-----------------
-11p9-11p9----9--
-----------10----
-----------------
-----------------
-----------------

----------11----------13-
-11h13-11----11h13-11----
-------------------------
-------------------------
-------------------------
-------------------------

liltimmy792 said...

what tone did you use for both parts?
and is it avalable on the pod xt live?