My Future Decided

Interestingly, United Live's official youtube account dropped me a comment in my vid on Break Free, asking where I got the clip from... I suspect they're concerned about piracy issues, and here's a reminder: don't steal music created by fellow Christian musicians! Anyway, I don't think they'll be too worried about this site: I don't post full length, full quality songs, my playing cannot be undubbed, and as NorCalYouth mentioned in the forum, he/she discovered Planetshakers here, and subsequently bought their cd - there's definitely a lot of recommendation going on here.

----------------------

Here's another song from United Live's new album, titled 'My Future Decided'. I don't have the cd yet, and got the clips of the interesting parts from a request in the forum.



The instrumental consists of two guitars playing, I think, and I can't pick out the parts clearly. I tried to play as accurately as I could, and although its not exactly the same, its decent enough for a single guitarist.


Tabs
Intro:
Here, try to play without any breaks in between the notes.. this means one finger has to be pressing down on a fret all the time.
----------------------------------
----------------------------------
----------------------------------
----------------------------------
-4-4-------------4-4-----5-5-4-4--
-----2-2-2-2-2-2-----2-2----------

----------------------------------
----------------------------------
----------------------------------
----------------------------------
----------------------------------
-5-5-5-5-5-5-5-5-5-5-5-5-7-7-7-7--

----------------------------------
----------------------------------
----------------------------------
----------------------------------
-4-4-------------4-4-----5-5-4-4--
-----2-2-2-2-2-2-----2-2----------

-----------------------------------
-----------------------------------
-----------------------------------
-----------------7-7-7-7-6-6-6-6-4-
-----------------------------------
-5-5-5-5-5-5-5-5-------------------

Chorus
Just before the chorus, play
----------------------------------
-9-----10----12-------------------
-12b13-13b14-15b16----------------
----------------------------------
----------------------------------
----------------------------------

Then play these chords:
A D F#m F#m
A D F#m F#m
D A E E
D A E E

Instrumental
With the usual dotted eighth note delay.
-----12-12-------------------17-17-16-16-
-s14-------------------------------------
-----------14-14-13-13-14-14-------------
-----------------------------------------
-----------------------------------------
-----------------------------------------

-12-12--------------------------------
--------------------------------------
-------14-14-14-14-14-14-14-14-14-14--
--------------------------------------
--------------------------------------
--------------------------------------

----------------------------------
-------------12-12-12-12----------
-14-14-14-14----------------------
----------------------------------
----------------------------------
----------------------------------

-----12-12-------------------17-17-16-16-
-s14-------------------------------------
-----------14-14-13-13-14-14-------------
-----------------------------------------
-----------------------------------------
-----------------------------------------

-12-12--------------------------------
--------------------------------------
-------14-14-14-14-14-14-14-14-14-14--
--------------------------------------
--------------------------------------
--------------------------------------

------------------
-5---3---3--------
-8b9-6b7-6b7r6----
------------------
------------------
------------------

Bridge
-----------------------------------------
-10-10-10-9--10-------10-10-10-9-10------
-11-11-11-11-11--(x2)-9--9--9--9-9--(x2)-
-----------------------------------------
-----------------------------------------
-----------------------------------------

----------------------10--------
-10-10-10-9--10-------10-(x16)--
-11-11-11-11-11--(x2)-----------
--------------------------------
--------------------------------
--------------------------------

16 comments:

Anonymous said...

three thumbs up

Henry said...

Yes! Thank You for encouraging people to buy albums!

I work for an anti-pirating agency, and its quite discouraging to see that people don't support the artists/ministry and just pirate the music without any conscious thought to what they're doing affects the artists/ministry themselves.

Thank you for addressing it! =)

Anonymous said...

Hey can figure out what the electric plays on verse? thanks for all the work, GOD BLESS!!

Anonymous said...

Awesome! for the very begin riff with the guitar using the synth + distortion the tab just starts on the 6th fret of G

Anonymous said...

Whats up I think the intro is played higher up i blieve, I do now have my guitar with me so forgive me if its off by a note or two but im 99% sure this is where its played with dist.delay,and a flanger
-----------------------
---14---14---15--14
-----11---11-------14--16
------------------------
------------------------
-------------------------

Anonymous said...

Hey could some one please email on:

ford_gtr_@hotmail.com

Could i please have all the effects that are used in "All Of The Above" and the song names. thanks so much.

[God.Bless]

Anonymous said...

Hey Kenny, love your guitar tabs, keep up the good work. When I play Point of Difference, I hear the instrumental/solo part differently on the original song than how you play it. I think people can easily play this solo when there's only 1 electric guitar. I think it sounds very close to the original song.
----12--12--12--12--17-17-16-16-12-12-14-14-
--------------------------------------------
s14---14--14--14--14------------------------
--------------------------------------------
--------------------------------------------
--------------------------------------------

--------------------------------------------
------------------------------17-15-14------
14-14-14-14-14-14-14-14--14-13--------14-14-
-----------------------14-------------------
--------------------------------------------
--------------------------------------------

12--12--12--12--17-17-16-16-12-12-14-14-
----------------------------------------
--14--14--14--14------------------------
----------------------------------------
----------------------------------------
----------------------------------------

-------------------------0~~--------
------------------------4s5--3~~3p2~
14-14-14-14-14-14-14-14------2~~2~~~
------------------------------------
------------------------------------
------------------------------------

Jake

Anonymous said...

Hey, the guitar tab kinda got messed up on my last post. Sry bout that. It should be...

Part 2:
-------------------------------
---------------17-15-14--------
14-(x8)--14-13----------14-14--
-------14----------------------
-------------------------------
-------------------------------

Part 4:
-------0~~--------
-------4s5-3~~3p2~
14-(x8)----2~~2~~~
------------------
------------------
------------------

Jake

Anonymous said...

Hey Kenny,

I think on the second verse, I don't know how it's played, but I do know the following notes are included:

G string, 11th fret
B string, 10th fret
E string, 9th & 10th fret

Maybe you can help Kenny.

Thanks, and God bless.

Anonymous said...

Hey Kenny,

On the instrumental, are you sure it's not:

-12------17-16-12-14--------------E
---14(4x)-14-14-14-14-------------B
---------------------14(12x)16-14-G
----------------------------------D
----------------------------------A
----------------------------------E

God Bless.

Anonymous said...

could someone tell me what effects are used here? thanks.

Anonymous said...

hey kenny wat effects did they use the intro part i suspect that they used a piano like effect..isn't it?

e-rock7 said...

This song sounds great if you have a boss gt-8 the synth effect the pedal has sounds just like the effect on the cd.

Anonymous said...

yup. it uses a synth effect. very sure that anon is right about the solo part, at least for this section:

----12--12--12--12--17-17-16-16-12-12-14-14-
--------------------------------------------
s14---14--14--14--14------------------------
--------------------------------------------
--------------------------------------------
--------------------------------------------

satanisanerd117 said...

Yes that solo is correct. it is not how you have it I know this for a fact. Watching them play it live numerous times this is the correct way for that section of the solo

----12--12--12--12---17-17-16-16
-----s14--14--14--14-----------

daryl said...

hey kenny.. can you post some guitar riffs from the "relient K" band. its a Christian Band. and their song are wonderful.