You Are My World

By Daryl & Kenny

One thing about this and many other songs is that you don't have to play fanciful stuff for instrumentals, especially in church - usually just playing and varying a little on the main melody suffices.

Here's the pre-verse (i typed intro in the video wrongly) & instrumental of the song, which relies heavily on the verse's melody.



Tabs
Pre-Verse
---------------------------------------------
---------------------------------------------
-----------------------------------2h4-2-----
-4h5-4-5-4-4h5-4-2-4-4h5-4-5-4-4h5-------4-5-
---------------------------------------------
---------------------------------------------

--------3h5p3-------
--------------3h5p3-
--------------------
5-5-5s7-------------
--------------------
--------------------

Instrumental
-------------------------------------
-------------------------------------
-5-4-5-4-5-4-7-4-5-4-5-4-5-7s9-7-5-5-
-------------------------------------
-------------------------------------
-------------------------------------
Note that although this line is very similar to the previous one by Daryl, I've played it in a different way - there are many ways of playing the same melody, it really depends on your personal preference and 'style'.

----------
----------
-7-5-4----
-------7--
----------
----------

-------------------------------------
-------------------------------------
-5-4-5-4-5-4-7-4-5-4-5-4-5-7s9-7-5-5-
-------------------------------------
-------------------------------------
-------------------------------------

--------
-8-7----
-----7--
--------
--------
--------

--------------------------------------
-10s12-12-12-12--12-10----10-12-12-12-
-----------------------12-------------
--------------------------------------
--------------------------------------
--------------------------------------

-------------------------------------
-12-10----10-12-12-12--12-10---------
-------12----------------------------
-------------------------------------
-------------------------------------
-------------------------------------
(Repeat the above two lines, you can do a hammer-on instead of a slide for the "10s12" portion)

2 comments:

Anonymous said...

does not match the video.

ken2012 said...

If you wear a lot of plain color clothes, Hermes Garden Party Tote classic colors such as black, orange, Blue Jean and dark gold are the best to match your outfit, or a two-tone colored Birkin would make you look cute and stylish. Greens, pink, fuchsia and Cyclamen are fresh in spring; rouge, red and orange looks gorgeous in autumn; blues, white and violet are popular in winter.