Tis' So Sweet

Here's a post on Tis' So Sweet by the Dave Matthews Band, by Troy, a new contributor, who not only plays the acoustic well, but has a great voice too.

By Troy




Note: you might have to copy and paste the tabs into a word editor, as some of the lines may be too long.
Verse: Main Riff 
----0-0-0------0-0-0------0-0-0--
----0-0-0------0-0-0------0-0-0--
----4-4-4------4-4-4------4-4-4--
----2-2-2------2-2-2------2-2-2--
-4----------0----------2---------
---------------------------------
----0-0-0------0-0-0------0-0-0
----0-0-0------0-0-0------0-0-0
----4-4-4------4-4-4------4-4-4
----2-2-2------2-2-2------2-2-2
-----------------------0-------
-0----------4------------------
----0-0-0------0-0-0-
----0-0-0------0-0-0-
----4-4-4------4-4-4- (repeat 8 times)
----2-2-2------2-2-2-
-2-------------------
------------------0--


Chorus:
----0-0-0------0-0-0------0-0-0--
----0-0-0------0-0-0------0-0-0--
----4-4-4------4-4-4------4-4-4--
----2-2-2------2-2-2------2-2-2--
---------------------------------
--0--------0-----------0---------

----0-0-0------0-0-0------0-0-0
----0-0-0------0-0-0------0-0-0
----4-4-4------4-4-4------4-4-4
----2-2-2------2-2-2------2-2-2
-2-----------------------------
-----------0----------4--------

----0-0-0------0-0-0------0-0-0-
----0-0-0------0-0-0------0-0-0-
----4-4-4------4-4-4------4-4-4-
----2-2-2------2-2-2------2-2-2-
-4----------2-------------------
----------------------0---------

-----0-0-0------0-0-0------0-0-0
-----0-0-0------0-0-0------0-0-0
-----4-4-4------4-4-4------4-4-4
-----2-2-2------2-2-2------2-2-2
--------------0-----------------
-4---------------------0--------

----0-0-0------0-0-0------0-0-0------0-0-0
----0-0-0------0-0-0------0-0-0------0-0-0
----4-4-4------4-4-4------4-4-4------4-4-4
----2-2-2------2-2-2------2-2-2------2-2-2
-----------0-----------2------------------
-4-------------------------------0--------

9 comments:

Anonymous said...

...

can we at least give some credit to the blatant Dave Matthews ripoff...

not saying that this is illegal... but there's absolutely no originality... give DMB some props...

kenny said...

No worries.

When Troy sent me the video i wasn't sure if the song was played by DMB, or if was based on something they did. This is because Troy told me that he "took the arrangment from [...] 'Dave Matthews Band'".

I received this comment before I could check back with him, so now I know.

Anonymous said...

If you read the description you would of found out that the arrangement was by DMB.

Anonymous said...

that post was edited to credit DMB after the fact....

Anonymous said...

Awesome song!!..great job man

-Josh

Anonymous said...

Troy that was tight nice job in singing and playing guitar but one question how did you get your voice so smooth like that or is it just natural?

Life Logic said...

can we get the lyrics

C.O.N said...

lyrics...
http://www.hymnsite.com/lyrics/umh462.sht

1. 'Tis so sweet to trust in Jesus,
just to take him at his word;
just to rest upon his promise,
just to know, "Thus saith the Lord."

2. O how sweet to trust in Jesus,
just to trust his cleansing blood;
just in simple faith to plunge me
neath the healing, cleansing flood!

Refrain:
Jesus, Jesus, how I trust him!
How I've proved him o'er and o'er!
Jesus, Jesus, precious Jesus!
O for grace to trust him more!

Griffo said...

http://www.youtube.com/watch?v=b0Cq7Tu4TY4

I did an cheat video for this riff that makes it easier to play. Only need 2 frets and a capo.
Might help someone.

This song is 'Crash into me'. Its musically brilliant.
well done Dave Mathews.
Griffo