Our God Reigns

Delirious' songs are very suitable for large congregations to sing along to... and in a sense it helps me visualize how the multitude of every Christian who has lived throughout time, will worship God in heaven. Here's the verse and chorus of Our God Reigns, one of the 'big congregation' songs:




Note that you have to tune to drop D tunning, meaning that your thickest string, the E string, has to be tuned two frets lower. It should have the same pitch (but on a different octave of course) as your D string.

By the way, do check out the Passion version of this song as well, its in the album 'Everything Glorious', by Tomlin, Redman, Crowder, & Hall.


Tabs
Verse
----------------------------------------------
----------------------------------------------
----------------------------------------------
-----4-----4--------------5-----5-------------
---0-----0-----0-(x2)---5-----5-----5-(x2)----
-0-----0-----0--------0-----0-----0-----------

----------------------------------------------
----------------------------------------------
----------------------------------------------
-----2-----2--------------5-----5-------------
---0-----0-----0-(x2)---5-----5-----5-(x2)----
-0-----0-----0--------0-----0-----0--------0--


Chorus
-----------------------------------
-----------------------------------
-----4-----4----------4-----4------
-----------------------------------
---5-----5-----5----5-----5-----2--
-5-----5-----5----5-----5-----0----

-----------------------------------
-----3-----3-----------3-----------
-------------------------------2---
---4-----4-----4-----4-------2-----
-2-----2-----2-----2-----2-4-----4-
-----------------------------------

-----------------------
-----------------------
-----------------------
-----4-----4-----------
---0-----0-----0-(x2)--
-0-----0-----0---------

2 comments:

Bill said...

This is really helpful, thank you.

Anonymous said...

solo anyone?

clo