More Than Life

This is one of my favourite Hillsong/United Live songs.... its just so.... deep. Hope you enjoy it:



The introduction portion is meant to be played with an acoustic guitar, and continues throughout the verse. Secondly, the verse portion is not found in the United Live version, but the Hillsong version. Lastly, the instrumental uses the United Live version, which is slightly easier because there is a fast run in the Hillsong version which is rather soft, and I can't pick it up.

Tabs
Intro/Verse for Acoustic
---------------------------------------
-----0-0------1-1------0-0-----------0-
---0--------0--------0--------2---2----
-2--------2--------0--------0---0------
---------------------------------------
---------------------------------------

Verse
-----7------8------7-------10---
---8------8------8------10------
-9------9------7------7---------
--------------------------------
--------------------------------
--------------------------------

Pre-chorus
-7---10--
-8---10--
-9---7---
---------
---------
---------

Instrumental
--------------------------------------------------
----8-8-7------8-8--------8-8-7b8r7------8-8-7b8r-
4-4-------4h5p4----4-4h5p4----------4h5p4---------
--------------------------------------------------
--------------------------------------------------
--------------------------------------------------
Repeat, followed by..

-------15-14b15r14-14-----------------
-12-13----------------15-15-13-12-----
--------------------------------------
--------------------------------------
--------------------------------------
--------------------------------------

--------15-14b15r14-14----------------
-----------------------15-15-13-12----
-14--12-------------------------------
--------------------------------------
--------------------------------------
--------------------------------------

--------15-14b15r14-14----------------
-----------------------15-15-13-12----
-14--12-------------------------------
--------------------------------------
--------------------------------------
--------------------------------------

---------------------
-----------15----15--
-14--14s16----16-----
---------------------
---------------------
---------------------
Repeat the instrumental, and end on the first note of the above (on the '14')

8 comments:

Anonymous said...

thank you
:)
ALEX---------------

Anonymous said...

Good work FRIEND!
buen trabajo amigo
un bon travail AMI!

Anonymous said...

can you please tell me the settings of the effect of this song

Anonymous said...

Nice job bro, feels like i'm actually listening to hillsong.lol, I got a question though,would you by any chance have the chords to this song? I've always loved this song sooo much but never found the time to ear it all out.any feedback would be awesome. God-Bless.

Anonymous said...

God bless you man!

Anonymous said...

hay man....
this song is also one of my favrite...
thanx for giving the tabs....
God bless..

Anonymous said...

how come you never post the chorus for any of the songs?

Antonio said...

thank you.Your work is not vain.