Made Me Glad

Here's Made Me Glad by Hillsong, in their 'Blessed' album, which features lots of very grand-sounding songs. Lots of chords further up the fretboard for this one.



Tabs
Intro/Verse
-6-6--------1-1-------
-6-8-(x2)---1-3-(x2)--
-8-8--------3-3-------
----------------------
----------------------
----------------------
Repeat several times, then strum Eb, Cm, followed by F.


Chorus
Strum:
-----------------------------------------
-11-10-11--16-15-16--16-15-16--18-18-18--
-10-10-10--15-15-15--15-15-15--15-14-15--
-----------------------------------------
-----------------------------------------
-----------------------------------------

----------------------------------
-11-10-11--16-15-16--16-15-16--18-
-10-10-10--15-15-15--15-15-15--15-
----------------------------------
----------------------------------
----------------------------------

2 comments:

Anonymous said...

Yeah this is great stuff!!! Good Job Kenny!!

kurochan said...

can i ask what chords is in the verse and chorus! thanx!