You Alone Are God

Of all the Hillsong songs I've tabbed out so far, eight come from the Mighty To Save album. Since there are only 6 more songs (two of which have few guitar parts) left in the album, I thought to finish tabbing the rest, the first being You Alone Are God, which was requested several some time back.



Tabs:
Chorus
-----------------------------7------7------
-------8-------8----------10-----10-----10-
----10------10------10--7------7------7----
-10------10------10------------------------
-------------------------------------------
-------------------------------------------

-------------------------------------------
-------8-------8-------------8------8------
----10------10------10-----9------9------9-
-10------10------10-----10-----10-----10---
-------------------------------------------
-------------------------------------------

----------------------------------
-----5-----5----------6-----6-----
---5-----5-----5----5-----5-----5-
-7-----7-----7----7-----7-----7---
----------------------------------
----------------------------------

----------------------------
-----8-----8----------------
---7-----7-----7---(x2)-----
-5-----5-----5--------------
----------------------------
----------------------------

Instrumental
--------------------------------------------------
-15-15-15-13-13-13----13--15-15-15-13-13-13-15-15-
-------------------12-----------------------------
--------------------------------------------------
--------------------------------------------------
--------------------------------------------------

-13-13-13-12-12-12-12-12--12-12-12----------------
-----------------------------------15-15-15-15-15-
--------------------------------------------------
--------------------------------------------------
--------------------------------------------------
--------------------------------------------------

7 comments:

Anonymous said...

God gave you talent, bro. i know your using it for His name sake...

I love this song... can you send the whole tab of the song? rmbaral_tac@yahoo.com

thanks and God bless... more power...

keep rockin to Jesus...rhey

James said...

This is really awesome. Your blog is really a blessing.

Anonymous said...

you're so blessed bro with your talent...8s perfect..can you send the whole tab at bj_bench87@yahoo.com plzzzz...
God bless you

Anonymous said...

Awesome man! your blessed with a great ear. What are your amp settings & what effects are you using? can you send the whole tab at slater2000_99@hotmail.com

thanks God bless

elysha Liza said...

thank God for your talent!
it's a big help. keep it up, continue to use your gift for the glory of God. God will surely bless you!.. God bless Son of God!

Anonymous said...

Bro, truly in deed you are a children of God,and im one of your most viewer anf your tab is Glory to God perfect...if its possible can you send the effects setting at my mail thanks..

ryancruzlimm@yahoo.com

Bro.Ryan
UBCFI, DUBAI

edwinsagun said...

ummmm,,, i'm just wondering if there is an actual method of doing the verse... i know its about the scale, but is there a more specific way of doing that. i noticed the notes are cyclic lke the mighty to save intro. Does it have any relation to that?