To the Ends of the Earth (Instrumental)

Here are the tabs of the guitar solo, for the United Live version. I took the liberty of converting some notes into bends, and added a 2nd guitar (not tabbed) at the back.



Tabs:

--------|-----|-----------|--------------
----7-8-|-----|-----------|--------------
-9------|7----|--------12-|14b16-16r14---
--------|---7-|9s12s14----|--------------
--------|-----|-----------|--------------
--------|-----|-----------|--------------

-12h15-12h14p12-10h12-------|---------------------
-------------------------12-|---------------------
----------------------14----|14b16-16r14-12-14----
----------------------------|------------------12-
----------------------------|---------------------
----------------------------|---------------------

----------------|----------------------
-------------12-|-15---15--------------
----11-12-14----|----------------------
-14-------------|----------------------
----------------|----------------------
----------------|----------------------

9 comments:

Anonymous said...

thnx 4 diz tab br0.. God Bless!

Peter said...

Hey.. i have a somewhat less complicated way to play it. works for me. im not very reliant in my bends yet.. so yeah for those of us without that skill yet..

|----------------------|
|---7-8---------8s12-10|
|7s9----7----7-9-------|
|---------7-9----------|
|----------------------|
|----------------------|

-12h15-12h14p12-10h12-------|
-------------------------12-|
----------------------14----|
----------------------------|
----------------------------|
----------------------------|

|---------------|
|12-10-8-10-----|
|----------11-9-|
|---------------|
|---------------|
|---------------|

|-------------10-|
|3s5s7s8s10-12---|
|----------------|
|----------------|
|----------------|
|----------------|

Anonymous said...

hey kenny i was wondering could you tab the solo for to the ends of the earth on the hope album

Will said...

I wonder if anyone knows what chords to play during the solo?

Wayne said...

Kenny! you're awesome! thanks for posting your tabs! you've helped a newbie like me tremendously! God bless your gift!

Here's an alternative tab I came up with. This includes the little interlude after chorus 1.

Interlude:
--------------------------------
-7h8-7-------7h8-7--------------
-------9-7-9-------9-7-9--------
--------------------------------
--------------------------------
--------------------------------
--------------------------------
-7h8-7-------7h8-7--------------
-------9-7-9-------9-7-9s1------
--------------------------------
--------------------------------
--------------------------------

Instrumental:

--------|-----|-----------|--------------
----7-8-|-----|-----------|--------------
-9------|7----|--------12-|14b16-16r14---
--------|---7-|9s12s14----|--------------
--------|-----|-----------|--------------
--------|-----|-----------|--------------

-12h15-12h14p12-10h12-------|---------------------
----------------------10h12-|10b12r10-8h10-10-----
----------------------------|-----------------7---
----------------------------|---------------------
----------------------------|---------------------
----------------------------|---------------------

--------------7-|-7h10---10------------
-----7—8--10----|----------------------
-7-9------------|----------------------
----------------|----------------------
----------------|----------------------
----------------|----------------------

k71293 said...

For hope ,I got this not 100%sure

-------------------
-8-7-5-3-3h7s8-8---
-------------------
-------------------
-------------------
-------------------
hope diz helps GB!

Anonymous said...

could you guys please tab the whole song!! please

Anonymous said...

hey kenny do you think you could figure out the tabs to the song "free" from this album. if you would that would be so awesome. thanks

invaderzboy said...

What are the chords in instrumental part of "to the ends of the earth"?
thank you..