This is How We Overcome (bass)

I've always wanted to put bass tabs up here, but I don't play/own the bass. Fortunately, Bass Levite has volunteered to contribute some bass videos. While the audio quality isn't perfect, its clear enough; whats important is that he has some pretty good ideas going on:

--------------------------------------------



Intro (not in vid):
---------------------
---------------------
---------------3-----
-1-1-1-3-3-3s5---5-3-

Verse (not in vid):
---------------------
---------------------
---------------3----- (3x)
-1-1-1-3-3-3s5---5-3-

-----------------------------------
-----------------------------------
-------------------------------2-2-
-1-1-1-1-1-1-1-1- -3-3-3-3-5-5-----


Chorus #1:
--------------------------------------------------
-----------------5s7s5----------------------5s7s5-
-3-5-3---3-----5----------5s7s5-3-5-3-----5-------
-------5---5-3----------5-------------5-3---------

------------------------------------------
-----------------5s7s5--------------------
-3-5-3---3-----5----------------------2-2-
-------5---5-3----------1-1-1-1-1-3-5-----

Chorus #2:
--------------------------------------------------
-----------------5s7s5----------------------5s7s5-
-3-5-3---3-----5----------5s7s5-8-7-5-3---3-------
-------5---5-3----------5---------------5---------

------------------------------------------
-----------------5s7s5--------------------
-3-5-3---3-----5----------------------2-2-
-------5---5-3----------1-1-1-1-1-3-5-----

Chorus type 1 is played before the bridge, and chorus type 2 is played after the bridge in the song.

You can also do a slide when going back to the verse after the chorus (I didn't do it in the video).


Bridge (first half): same as intro
---------------------
---------------------
---------------3-----
-1-1-1-3-3-3s5---5-3-

Bridge (second half): building up
---------------------------------
---------------------------------
---------------------------------
-1-1-1-1-1-1-1-1-3-3-3-3-5-5-5-5-

you can also add a G in transition from Am back to F:
---------------------------------
---------------------------------
---------------------------------
-1-1-1-1-1-1-1-1-3-3-3-3-5-5-3-3-

1 comment:

Daniel Dude said...

hello, great video, but it seems like the tabs are different from the video