The Stand (chorus-instrumental)

Here's The Stand by United Live. There's not much guitaring, other than the chorus and instrumental parts. The interval between the notes in the chorus form a 6th, its good to play around with them, and know which chords each interval can fit into. There's lots of sliding going on as well.



I just couldn't get the video to sync with the music at the end, but you don't mind, don't you?

Tabs:

Chorus:
--------------|-------------|
-7-----9------|10-----9-----|
--------------|-------------|
---7s9---9s11-|--11s9---9s7-|
--------------|-------------|
--------------|-------------|

-------------|---------------|
-7----9------|10------14-----|
-------------|---------------|
--7s9---9s11-|--12s14----9s7-|
-------------|---------------|
-------------|---------------|

(Keep repeating the above four bars. The last two bars are not played in the final repeat)

Instrumental
---------12--12----------------------------
-14--14----------12--12--14--15------------
---14--14--14--14--14--14--14--14----(keep repeating)
-------------------------------------------
-------------------------------------------
-------------------------------------------

13 comments:

Craig Hill said...

Hey kenny,

thanks so much for these videos!!!

how would i play the riff that introduces "i'll stand....." in C???

At my church band we play the song C G D Em

Blessings...

Craig

P.s. could you try and do a few more tim hughes tracks!

His new album is amazing!!! MGC and Stu G played electric on the album, a track to listen out for is Holdong Nothing Back! Would be cool if you could tab that song!!!

Anonymous said...

All Good? What the favour of God is stops With you Would like to know which equipment you uses? I live in Brazil

Paul said...

The way i play "So what can i say, what can i do, etc" is like this. I find it slightly easier.

e----------------------------------
b---9-------9-------10--------12---
g---11-----------------------------
d---9---9h11----9h11-----9h11------
a---------------------------------
e---------------------------------

Paul said...

Oops.. can't out slightly wrong

e----------------------------------
b-9----------9------- 10------12-
g-11-----------------------------
d-9---9h11----9h11-----9h11--
a---------------------------------
e---------------------------------

tmt7 said...

which delay did you use here¿
thanks

dpburt00 said...

hey i was wantin to play in your freedom (on the hillsong live Savior King album) but it isnt on here so i was gonna see if you could post that one cause i cant really figure out songs and i normally learn mine from you. .so just see what you can do please. . thx man

keith said...

hey man...
can you tab the instrumental part near the end??
from 8:41-end...
i really need that...
tnx

Anonymous said...

do you have a delay on

DaRe MaN said...

hey ppl... um jst dropping in and telling you that God is very powerful and if your struggling jst tlk to your pastors... they have helped me through alot of bad times.. we"re lucky to have them and they are always their for you!!! :)God bless....

Stephen said...

In the prechorus when you do the last one on the first time theres a chord on the end...


-------------12
---------14--14
---12s14-----14
---------------
---------------
---------------

Stephen said...

Craig, this is in A so if you want to play it in C either move everything up 3 frets, like a capo 3

ike_usc said...

what about the tabs on the intro to the song "the stand" i would love to learn

self-operation said...

Godbless you bro.. :) thanks..