King (intro)

Anyone here likes Tree63's music? If you've not heard their music before, I strongly recommend their 'greatest hits' album, called "Worship Volume One: I Stand for You". Here's the introduction from 'King', in the same album.



Its quite challenging, so try it out at a slower tempo first.

Tabs:
--------------------------------------------
-------16-----16-------15-------16----------
----15-----15----15-------15--------15------
-13-----------------13--------13-------13---
--------------------------------------------
--------------------------------------------

--------------------------------------------
-------16-----16-------15-------16----------
----15-----15----15-------15--------15------
--------------------------------------------
-15-----------------15--------15--------15--
--------------------------------------------

--------------------------------------------
-------16-----16-------15-------16----------
----15-----15----15-------15--------15------
--------------------------------------------
-13-----------------13--------13--------13--
--------------------------------------------

--------------------------------------------
-------16-----16-------15-------16----------
----15-----15----15-------15--------15------
--------------------------------------------
-11-----------------11--------11--------11--
--------------------------------------------

9 comments:

Brian said...

please post more of this song!! thanks :)

Anonymous said...

Can u guys post the tabs for the rest of the king? plz ><

Anonymous said...

yeah can u plz tab out the rest of 'king'

Tim said...

Dang bro very nice, i love this song

Anonymous said...

please post more of this song!!

Tim said...

Can you do a tutorial for "joy" and "treasure"...thatd be the best

Anonymous said...

This is the way they play it on the answer to the question cd:

--------------------------------
-----16----16----15----16----16-
---15----15----15----15----15---
-13----13----13----13----13-----
--------------------------------
--------------------------------


--------------------------------
-----16----16----15----16----16-
---15----15----15----15----15---
--------------------------------
-15----15----15----15----15-----
--------------------------------

--------------------------------
-----16----16----15----16----16-
---15----15----15----15----15---
--------------------------------
-13----13----13----13----13-----
--------------------------------

--------------------------------
-----16----16----15----16----16-
---15----15----15----15----15---
--------------------------------
--------------------------------
-16----16----16----16----16-----


That 16 on E snare can be replaced by a 11 on a A snare.
This is tomething easier to play I think.

God bless you all with playing guitar.

Jon the same as Jonathan said...

Sweet!!!

Unknown said...

i like this song too, i add on to the intro:
g-13-12-10-8-
d--x--x--x-x-
A-11-10--8-6- (x3) then A# octave


verse:
D#, (C), A#, G# then
G, G#, A# X2 or
b-7b-8b-------------7b-8b-10b--
g--------9b--10b----------------
d-----------------9b-------------

chorus: maybe together with the add on intro
D#-D-C-A# X2, G#, G, F, A#
D#-D-C-A# X2, G#, A#.

post chorus 2gether with add on intro
D#, C, A#, G#

THANKS,
percy