All Day

By Kenny & Tadeu

Its quite a coincidence that as I was doing this post, a bassist volunteered to be contribute bass tabs, & sent me a demo video of himself playing 'All Day'! Hope to see more bass tabs here!





Bass Riff
--------------------------------
--------------------------------
-------------1------------------
---------2-2---2-----1-2--------
-----1-2---------2-2---------2-1
-4-4---------------------2-2----

Guitar (before 2nd verse)
--------------------------------
-12-12-11-11-12-12--------------
-------------------9-8---(x3)---
--------------------------------
--------------------------------
--------------------------------

-------------11-11b12r11-9------
-12-12-11-11---------------12---
--------------------------------
--------------------------------
--------------------------------
--------------------------------


Speaking of which, here's a different version i created of All Day, hope to expand it properly when I have the time:

3 comments:

temo said...

United added a new guitar riff during the verses and I hear it in the videos on you tube, is there any possible way you could figure out the new riff. Heres a link to one of the vids http://www.youtube.com/watch?v=nhidZ5W9nAQ

thanks, god bless you!!

kenny said...

Pretty cool, but its hard to hear the guitar parts!

RIENZE said...

WHATS THE CHORDS FOR ALL DAY??