His Love

Intro, Verse, Chorus
Here's the almost full vid+tabs for His Love, in Hillsong's God He Reigns album. The chords used here are quite interesting, and are largely based on the 'Hillsong Acoustic' version found in the album's DVD. I've switched to using my digital camera (though at a low quality setting to conserve file size, as this clip is quite long), as opposed to using the camera in my mobile, hope its clearer:




While recording this clip I realised that my software (audacity) speeds up whatever I play by a slight amount which becomes quite noticeable for longer clips like this - the guitar portion finished a second earlier than the recorded music for the first half of the video. I attempted to cut and paste portions of the recorded guitar to sync with the recording, but there are still some messy parts.

Also, apologies for the messy playing for the 2nd half of the video, i was beginning to get quite tired (its 2am right now), but i hope this portion helps you break down the song into different parts, as tabbed below:

Intro:
-9--7--4--5--4--0--5--4--5--4--5-4-------
-9--7--5--5--5--5--5--5--5--5--5-5-------
-9--9--4--4--4--4--4--4--4--4--4-4-------
-----------------------------------------
-----------------------------------------
-----------------------------------------

Verse:
-7-------------
-7---------9--- Play Emaj9 a few times,
-8---------9--- then rotate between the
-9---------7--- two chords.
-7-------------
---------------

Emaj9 Amaj7


Pre-Chorus:
------------
-9---9--9---
-9---9--8--- (x2)
-7---9--9---
------------
------------

Chorus 1:
-0----0------0-----0----0---
-0----0------0-----0----0---
-9----9------9-----9----8---
-9----9------7-----9----9---
-7----9------0--------------
-------------------7----7---

E F#7sus4 Asus2 Bsus4 B

Chorus 2:
--9--9--9---7--7--7---3--3--3---2--2--2-
---0--0------0--0------0--0------0--0---
-9--9--9---8--8--8---3--3--3---3--3--2--
----------------------------------------
----------------------------------------
----------------------------------------

Repeat first two bars, then play Emaj9.



Instrumental
I omitted the instrumental portion of His Love two posts ago, so here it is. Hope you guys like the better camera that I'm using!




By the way, I didn't use my pod xtl for this recording. Instead, I opted for my backup effects, something really cheap that i bought for about S$100 (about US$60) only. Were you able to tell the difference?

Tabs:
-7----------------------------
-7-------14--12--9--10--9--5--
-8-(x8)-----------------------
-9-------11--9---6--7---6--2--
-7----------------------------
------------------------------

------------------------------
-4----------------------------
-4-------14--13--9--11--6--4--
-4-(x8)-----------------------
---------12--11--7--9---4--2--
-4----------------------------

4 comments:

Temo said...

The new camera really helps!!!! Great Job on it!!!

Yuri said...

Chorus 2:
--9--9--9---7--7--7---4--4--4---2--2--2-
---0--0------0--0------0--0------0--0---
-9--9--9---8--8--8---4--4--4---4--4--4--
----------------------------------------
----------------------------------------
----------------------------------------
Repeat first two bars, then play Emaj9.



I think it should be more like this... the clip's right... but the tab isn't.. atleast that's what i think it sounds like...

joel houston??!! said...

Thank you very much for the tabs, you're a great help to us, the KKB-WLT. YOu teach me technically and spiritually!!

Mike said...

I agree with Yuri. Great otherwise.