Came to the Rescue (intro-verse, bridge)

Yesterday marked a new visitor record for guitarpraise, of 551 visits! The average has gone up from about 200+ two weeks ago to almost 400 now. Thanks for all your support.

The intro-verse riff of this song is quite subtle, so feel free to roll down your volume knob, else the picking sound would cut through as well. The bridge can be found in the 2nd half of the video, and uses chords strummed further up the fretboard. Somehow it reminds me of the post on How Great is Our God (see songlist on the right).



Somehow this recording took quite a few takes to make, still quite dissatisfied with the quality, but hope it helps anyway!

Tabs:
Intro-verse
--------|-3--------5--|-3------|----------------|
-5------|-3-(x5)--3-3-|--------|-6-(x4)-6-6-6-6-|
-5-(x8)-|--------5----|-5-(x8)-|-5------4-5-4-5-|
--------|-------------|--------|----------------|
--------|-------------|--------|----------------|
--------|-------------|--------|----------------|
C . . . . . G . . . . . . . Am7 . . . F

Bridge
------------------|
-13------12-------|
-12-(x4)-12-(x4)--|(x3)
-10------10-------|
------------------|
------------------|
Am, Am, C

---------------------|
-13--13------13------|
-12--10-(x4)-9--(x3)-|
-10--10------10------|
---------------------|
---------------------|
C

------------------|
-13------12-------|
-12-(x4)-12-(x4)--|(x2)
-10------10-------|
------------------|
------------------|
Am, Am

-----------|
-13--------|
-10-(x4)---|(x2)
-10--------|
-----------|
-----------|
F

13 comments:

MATT said...

Hi have you got tabs and video for TAKE IT ALL but the Hillsongs united live version ROCKIER VERSION...

many blessing...love this site it helping meloads

Anonymous said...

kenny pliss tell me what effects can i use for the instrumental part?

kenny said...

I can't remember, but my best guess is the Vox 30W amp with a Rat distortion (simulated on my pod).

jasper said...

Hi um, how did u get that effect on your elec?

Anonymous said...

use swell if you the rp300 and take the sound gate off

Anonymous said...

esta muy buena esa
nus vemos

stever said...

hey the video doesn't work anymore!
could you please fix it?

thanks for a great site! i refer it to all my friends

Anonymous said...

Came to "my" rescue

Anonymous said...

hey kenny
awesome job man, as usual
could you please tab "a reprise", which comes rights after "came to the rescue" in the united we stand cd?
i've found some tabs, but they weren't very accurate

god bless you man, and keep on the good job for jesus

marcio, from brasil

Polak said...

hey Kenny
Thanks for all your work , God Bless you :) Keep up ...thanks for your work i have improve my skills.

Can you add tabs to ,,Father I" ? from Album To The Ends of The Earth ... i very like this song but i cannot find tabs anywhere

Thanks ALOT !

Daniel from Poland :)

Anonymous said...

wat do u strum

Anonymous said...

You do a great job! Keep it up!!!

rostifer58 said...

Hey great job, but i think the opening bar is played

-----------------|
-5-5-5-5-5-5-6-6-|
-5-5-5-5-5-5-5-5-|