Way Maker (Darlene Zschech & William McDowell version)

There are lots of different versions of this song, but this has one of the clearest lead guitar parts.

 

Intro
-12-14-9---------12-14-9-------12-10p9-----
---------10-12-----------10-12---------10--
-------------------------------------------
-------------------------------------------
-------------------------------------------
-------------------------------------------

Just before the chorus
----------------------
-10-12-14-10----------
----------------------
----------------------
----------------------
----------------------

Chorus
-10---12-9-----------------------
-------------10-12---10-12-14----
------------------------------11-
---------------------------------
---------------------------------
---------------------------------

Chorus (b)
---------------------------------
-15----15----15----17------------
----14----14----14----14---------
---------------------------------
---------------------------------
---------------------------------

---------------------------------
-14----14----14----14------------
----14----14----14----14---------
---------------------------------
---------------------------------
---------------------------------

-----------------9---------------
-12---12---10-12---10------------
----9----9------------11---------
---------------------------------
---------------------------------
---------------------------------


Chorus (c)
Strum:
---------------------------------
-15---14----12----10-------------
-14---14----9-----9--------------
-12---14----9-----8--------------
---------------------------------
---------------------------------

End with:
---------------------------------
---------------------------------
-11-9-7-6-7----------------------
---------------------------------
---------------------------------
---------------------------------

Who You Say I Am - Hillsong Kids version

It may seem like "just a kid's version", but the electric guitar here is pretty groovy!



Verse
--------------------
-------4---------4--
--------------------
----4---------4-----
-2---------2--------
--------------------

--------------------
-------12--------11-
--------------------
----13--------11----
-11--------9--------
--------------------

--------------------
-----4---2h4p2--0---
--------------------
---4----------------
-2------------------
--------------------

--------------------
-------4---------4--
--------------------
----4---------4-----
-2---------2--------
--------------------

-----------------------------------
-------12--------11------9---------
-----------------------------------
----13--------11-------9-----(x2)--
-11--------9---------7-------------
-----------------------------------

Chorus
---------------------------------
---------------------------------
----11-9-8---------11-9-8--------
--9--------11----9---------------
---------------------------------
---------------------------------

-----------------------------------
-------12--------11------9---------
-----------------------------------
----13--------11-------9-----9h11--
-11--------9---------7-------------
-----------------------------------


---------------------------------
-12-------------12---------------
----11-9-8-9-11----11-9-8-9-11---
---------------------------------
---------------------------------
---------------------------------

Bridge
-----2------2------2------2------
---0------0------0------0--------
-1------3------4-----------------
----------------------2----------
---------------------------------
---------------------------------

repeat a few times, then play:

-----2------2------2-------------
---0------0------0---------------
-1------3------2------(x2)-------
---------------------------------
---------------------------------
---------------------------------

New Wine: Take Heart Version by Hillsong

In this version, the electric is the sole accompaniment, with a repeating clean riff:
 

 


Play with a capo on the first fret

---------------------------------
---10----------------------------
---10----------
10h12p10----------
---10----------10h12p10----------
--------10h12--------------------
-1-------------------------------

---------------------------------
----6----------------------------
----7------7h8h7-----------------
----8------8---------------------
-1------1---------1--------------
---------------------------------

----5----8--8--------------------
----6----6--6--------------------
----7----7--7--------------------
---------------------------------
-5-------------------------------
---------------------------------

---------------------------------
-3--3----1-----------------------
-3--3----2-----------------------
-3--3----3-----------3h5---------
-1--1----3-------3h5-------------
---------1-----1-----------------

Indescribable Acoustic Version (Hillsong Young & Free)



Original version: https://www.youtube.com/watch?v=f0jnkMeQTKk

Capo on the third fret

Main riff/ Chorus
-------------3h5p3-----
-----6-------------6---
---5---5-------------3-
-----------------------
-5---------5-----------
-----------------------


-----6-------5h6p5-3---
-------6-------------6-
---3-------------------
-----------------------
-----------------------
-3--------3------------


------------3h5p3------
-----6------------6----
---5---3------------3--
-----------------------
-3--------3------------
-----------------------


-----5-3---------------
-----6-6--------6------
---5-----------5---5----
-3---------------------
----------3h7----------
-----------------------



Verse
Palm mute these chords
------------------------
--6---6---5---6---5-----
--5---3---5---5---5-----
--------------3---------
--5-------3-------7-----
------3-----------------


Pre-Chorus 
-----3-------------3-------------
--6-------------6----------------
-------5--------------5----------
---------------------------------
--5-------(x2)----------(x2)-----
----------------3----------------

----3-------------3-------3------
-5-------------6--------5--------
-------5-------------5------5----
---------------3-----------------
-3-------(x2)-----------7--------
---------------------------------

-----3-------------3-------------
--6-------------6----------------
-------5--------------5----------
---------------------------------
--5-------(x2)----------(x2)-----
----------------3----------------

----3---------------------------
-5-------------6----------------
-------5-------5----------------
---------------3---(strum)------
-3-------(x2)-------------------
--------------------------------


Guitarpraise is back!

It's been seven years since I last posted but I've recently started again making videos again! I've not been making tabs though and won't be posting them on the blog, so do check out the Guitarpraise channel on Youtube for the videos, and subscribe to the channel to get updates whenever I post new stuff. Recent additions include Way Maker, Extravagant, Now I'm Free, Man of Sorrows, as well as a newer version of Mighty to Save from United's Israel tour (see below for the clip). Hope to continue posting!